Пикник - Побежать бы за леса-горы

9 641
                Проигрыш: Em  B  Em  D  Am(V)  C  Bm  Em

Em                   B  (Bsus2 B)
Заблудились в чужом городе
Em                   D  (Dsus2 D Dsus4 D)
И дрожит душа на холоде
Am(V) (Amadd9)  C       Bm     Em
Где шагами исколота дышит земля

Притворимся прохожими
Друг на друга похожими
Все пути уж исхожены, да заветного нет

A                       B
Полететь бы за леса-горы
Em                      D
Полететь бы за горы-леса
Am(V)             C               A
Где с хрустальным звоном небеса празднуют
B
Рассвет

Рвут дороги на части
Видно нетути счастья

Видно с ветром качаться вот что выпало мне

Полететь бы за леса-горы
Полететь бы за горы-леса
Где с хрустальным звоном небеса празднуют
Рассвет

1|-0-0000-0------0-0000-0-2-0-2-----5-5555-7-3-2-0--3-320------|
2|----------4-2-4------------------------------------------33--|

1|-------7----5-7----5-3----0-8-7-5---7-0-0---0

Аккорды:
   Em  B Bsus2 D  Dsus2 Dsus4 Am(V) Amadd9  C(III) Bm А или А(V)
1|-0---2--2---2---0---3---5------7-----3-----2-----0-----5-----|
2|-0---4--2---3---3---3---5------5-----5-----3-----2-----5-----|
3|-0---4--4---2---2---2---5------5-----5-----4-----2-----6-----|
4|-2---4--4---0---0---0---7------7-----5-----4-----2-----7-----|
5|-2---2--2-----------------7------7-----3-----2-----0-----7---|
6|-0--------------------------5------5-----------------------5-|
                
Оцените сложность:
Сложно
Средне
Легко
Тональность
Размер
3

Комментарии

Фотография Пикник
Пикник
Привет! Помоги сайту - оставь комментарий. А так же если увидел какую-либо ошибку!:)