Marshmello - Rescue Me

892
                Marshmello - Rescue Me (ft. A Day To Remember)
Tuning: Drop C#

My cover 


[Intro](Clean w/ Delay)
Guitar 1 
D#|-----------12-------------12---------17-----12-------------|
A#|------13--------12--13-15----12----------15----15--13--15--|
F#|--14-----------------------------14------------------------|
C#|-----------------------------------------------------------|2x
G#|-----------------------------------------------------------|
C#|-----------------------------------------------------------|


[Verse] (Clean w/ Delay)
A million fresh starts, what I needed, it was closure...

Guitar 1
D#|--------------------------------|
A#|--------------------------------|
F#|-----------------2--2--5--5--5--|
C#|--3--3--0--0--0-----------------|2x
G#|--------------------------------|
C#|--------------------------------|


[Chorus]
When I found you, I found me...

Guitar 1
D#|---------------------------------------------------------------|
A#|---------------------------------------------------------------|
F#|------------------------------------2-----2-------5-----5---5--|
C#|------3-----3-------0-----0-0---2-2-2-2-2-2-2-5-5-5-5-5-5-5-5--|3x
G#|--3-3-3-3-3-3-3-0-0-0-0-0-0-0-0-0-0-0-0-0-0-0-3-3-3-3-3-3-3-3--|
C#|--3-3-3-3-3-3-3-0-0-0-0-0-0-0-0--------------------------------|
PM   * *   * *   * * *   * *     * * *   * *   * * *   * *   *

Guitar 1
D#|----------------------------------------------------|
A#|----------------------------------------------------|
F#|------------------------------------2-----2-----5---|
C#|------3-----3-------0-----0-0---2-2-2-2-2-2-2-5-5---|
G#|--3-3-3-3-3-3-3-0-0-0-0-0-0-0-0-0-0-0-0-0-0-0-3-3---|
C#|--3-3-3-3-3-3-3-0-0-0-0-0-0-0-0---------------------|
PM   * *   * *   * * *   * *     * * *   * *   * *   

Guitar 2 
D#|--------12-------12-------10-------10--|
A#|-----13-------13-------12-------12-----|
F#|--12-------12-------10-------10--------|
C#|---------------------------------------|3x
G#|---------------------------------------|
C#|---------------------------------------|
PM   * * * * * * * * * * * * * * * * * * 

Guitar 2
D#|--------12-------12-------10----10--|
A#|-----13-------13-------12-----------|
F#|--12-------12-------10-------10-----|
C#|------------------------------------|
G#|------------------------------------|
C#|------------------------------------|
PM   * * * * * * * * * * * * * * * * 


[Post Chorus]
Guitar 1
D#|--12-----12---------12-----12---------12-----12---------15-----12---------|
A#|-----13-----15--13-----13-----12--13-----13-----15--13-----13-----15--13--|
F#|--------------------------------------------------------------------------|
C#|--------------------------------------------------------------------------|4x
G#|--------------------------------------------------------------------------|
C#|--------------------------------------------------------------------------|

Guitar 2
D#|---------------------------------------------------|
A#|---------------------------------------------------|
F#|--------------------------2--2---5--5-5-5-5-5-5-5--|
C#|--3--3---0--0-0-0-0-0-0-0-2--2---5--5-5-5-5-5-5-5--|4x
G#|--3--3---0--0-0-0-0-0-0-0-0--0---3--3-3-3-3-3-3-3--|
C#|--3--3---0--0-0-0-0-0-0-0--------------------------|

[Verse]
Call it high-strung, started upping my dosage...

Guitar 1
D#|--8--5---12--10--|
A#|--8--5---13--10--|
F#|--9--7---14--12--|
C#|-----------------|4x
G#|-----------------|
C#|-----------------|

You're my light in the sinless ocean...

Guitar 2
D#|--------------------------------|
A#|--------------------------------|
F#|-----------------2--2--5--5--5--|
C#|--3--3--0--0--0-----------------|2x
G#|--------------------------------|
C#|--------------------------------|

[Chorus]
When I found you, I found me...

Guitar 1
D#|---------------------------------------------------------------|
A#|---------------------------------------------------------------|
F#|------------------------------------2-----2-------5-----5---5--|
C#|------3-----3-------0-----0-0---2-2-2-2-2-2-2-5-5-5-5-5-5-5-5--|3x
G#|--3-3-3-3-3-3-3-0-0-0-0-0-0-0-0-0-0-0-0-0-0-0-3-3-3-3-3-3-3-3--|
C#|--3-3-3-3-3-3-3-0-0-0-0-0-0-0-0--------------------------------|
PM   * *   * *   * * *   * *     * * *   * *   * * *   * *   *

Guitar 1
D#|----------------------------------------------------|
A#|----------------------------------------------------|
F#|------------------------------------2-----2-----5---|
C#|------3-----3-------0-----0-0---2-2-2-2-2-2-2-5-5---|
G#|--3-3-3-3-3-3-3-0-0-0-0-0-0-0-0-0-0-0-0-0-0-0-3-3---|
C#|--3-3-3-3-3-3-3-0-0-0-0-0-0-0-0---------------------|
PM   * *   * *   * * *   * *     * * *   * *   * *   

Guitar 2 
D#|--------12-------12-------10-------10--|
A#|-----13-------13-------12-------12-----|
F#|--12-------12-------10-------10--------|
C#|---------------------------------------|3x
G#|---------------------------------------|
C#|---------------------------------------|
PM   * * * * * * * * * * * * * * * * * * 

Guitar 2
D#|--------12-------12-------10----10--|
A#|-----13-------13-------12-----------|
F#|--12-------12-------10-------10-----|
C#|------------------------------------|
G#|------------------------------------|
C#|------------------------------------|
PM   * * * * * * * * * * * * * * * * 


[Post Chorus]
Guitar 1
D#|--12-15----12---------12-----12---------15-----12---------12-----12-----12--|
A#|--------------15--13-----13-----12--13-----13-----15--13-----13-----15------|
F#|----------------------------------------------------------------------------|
C#|----------------------------------------------------------------------------|2x
G#|----------------------------------------------------------------------------|
C#|----------------------------------------------------------------------------|

D#|--12-----12---------12-----12---------12-----12---------15-----12---------|
A#|-----13-----15--13-----13-----12--13-----13-----15--13-----13-----15--13--|
F#|--------------------------------------------------------------------------|
C#|--------------------------------------------------------------------------|2x
G#|--------------------------------------------------------------------------|
C#|--------------------------------------------------------------------------|

Guitar 2
D#|---------------------------------------------------|
A#|---------------------------------------------------|
F#|--------------------------2--2---5--5-5-5-5-5-5-5--|
C#|--3--3---0--0-0-0-0-0-0-0-2--2---5--5-5-5-5-5-5-5--|4x
G#|--3--3---0--0-0-0-0-0-0-0-0--0---3--3-3-3-3-3-3-3--|
C#|--3--3---0--0-0-0-0-0-0-0--------------------------|

[Bridge]
You know my S.O.S.O.S...

Guitar 1
D#|--------------------------------------------------------------------|
A#|--13-13-13-13--13--13--13-13-13--13--13-13-13-13--13--13--13-13-13--|
F#|--------------------------------------------------------------------|
C#|--------------------------------------------------------------------|2x
G#|--------------------------------------------------------------------|
C#|--------------------------------------------------------------------|

Guitar 1
D#|---------------------------------------------------------------|
A#|---------------------------------------------------------------|
F#|------------------------------------2-----2-------5-----5---5--|
C#|------3-----3-------0-----0-0---2-2-2-2-2-2-2-5-5-5-5-5-5-5-5--|5x
G#|--3-3-3-3-3-3-3-0-0-0-0-0-0-0-0-0-0-0-0-0-0-0-3-3-3-3-3-3-3-3--|
C#|--3-3-3-3-3-3-3-0-0-0-0-0-0-0-0--------------------------------|
PM   * *   * *   * * *   * *     * * *   * *   * * *   * *   *

Guitar 1
D#|----------------------------------------------------|
A#|----------------------------------------------------|
F#|------------------------------------2-----2-----5---|
C#|------3-----3-------0-----0-0---2-2-2-2-2-2-2-5-5---|
G#|--3-3-3-3-3-3-3-0-0-0-0-0-0-0-0-0-0-0-0-0-0-0-3-3---|
C#|--3-3-3-3-3-3-3-0-0-0-0-0-0-0-0---------------------|
PM   * *   * *   * * *   * *     * * *   * *   * *   

Guitar 2 
D#|--------12-------12-------10-------10--|
A#|-----13-------13-------12-------12-----|
F#|--12-------12-------10-------10--------|
C#|---------------------------------------|3x
G#|---------------------------------------|
C#|---------------------------------------|
PM   * * * * * * * * * * * * * * * * * * 

Guitar 2
D#|--------12-------12-------10----10--|
A#|-----13-------13-------12-----------|
F#|--12-------12-------10-------10-----|
C#|------------------------------------|
G#|------------------------------------|
C#|------------------------------------|
PM   * * * * * * * * * * * * * * * * 

[Post Chorus]
Guitar 1
D#|--12-----12---------12-----12---------12-----12---------15-----12-----12--|
A#|-----13-----15--13-----13-----12--13-----13-----15--13-----13-----15------|
F#|--------------------------------------------------------------------------|
C#|--------------------------------------------------------------------------|4x
G#|--------------------------------------------------------------------------|
C#|--------------------------------------------------------------------------|

Guitar 2
D#|---------------------------------------------------|
A#|---------------------------------------------------|
F#|--------------------------2--2---5--5-5-5-5-5-5-5--|
C#|--3--3---0--0-0-0-0-0-0-0-2--2---5--5-5-5-5-5-5-5--|4x
G#|--3--3---0--0-0-0-0-0-0-0-0--0---3--3-3-3-3-3-3-3--|
C#|--3--3---0--0-0-0-0-0-0-0--------------------------|

Never been safe but I've never come closer
Another year down and another year older
A million fresh starts, what I needed was closure, yeah
I lost who I was but I found my composure, yeah
When I found you
I found me
Nothin' around, far as I could see
You were the current that carried me
When I found you
I found me
Lines in the sand only you can read
My S.O.S., yeah, you rescued me
Rescue me
When I found you
I found me
Lines in the sand only you can read
My S.O.S., yeah, you rescued me
Call it high-strung, started uppin' my dosage
We're way too young to be feelin' this hopeless
You were my light in this endless ocean, yeah
Feelin' alive, even just for this moment, yeah
When I found you
I found me
Nothin' around, far as I could see
You were the current that carried me
When I found you
I found me
Lines in the sand only you can read
My S.O.S., yeah, you rescued me
Rescue me
When I found you
I found me
Lines in the sand only you can read
My S.O.S., yeah, you rescued me
You got my S.O.S.O.S.
You got my S.O.S.O.S.
When I found you
I found me
Nothin' around, far as I could see
You were the current that carried me
When I found you
I found me
Lines in the sand only you can read
My S.O.S., yeah, you rescued me
Rescue me
When I found you
I found me
Lines in the sand only you can read
My S.O.S., yeah, you rescued me
Rescue me

************************************

| PM  Palm mute
 

************************************
                
Оцените сложность:
Сложно
Средне
Легко
Тональность
Размер
3

Комментарии

Фотография Marshmello
Marshmello
Привет! Помоги сайту - оставь комментарий. А так же если увидел какую-либо ошибку!:)