Marilyn Manson - White Trash

2 389
                e|-------------0-------0-------0---------------0---------------0>--------
H|-------------1-------1-------1---------------1---------------1>--------
G|-------------2-------2-------2---------------2---------------2>--------
D|-------------2-------2-------2---------------2---------------2>--------
A|---------0---0-------0---0---0-----------0---0-----------0---0>--------
E|-0---3-------0---0---0-------0---0-0h3-------0---0---3-------0>0---0h3-Am                C
Virgins sold in quantity
G
African-American heredity
I'm playin' my guitar and I'm feelin' fine
Why are all the niggers in the unemployment
   line?   Am|    {A/0}|         C   C|
   White Trash get down on your knees;
   G
   Time for cake and sodomy.
   Am     Am|             C C|
   White Trash get down on your knees;
   G
   Time for cake and
     sodomye|---------------------0-------0-------0>--------
H|---------------------0-------0-------0>--------
G|---------------------0-------0-------0>--------
D|---------------------0-------0-------0>--------
A|-----------------0---0-------0---0---0>--------
E|-0---0---3---4-------0---0---0-------0>0---0
                
Оцените сложность:
Сложно
Средне
Легко
Тональность
Размер
3

Комментарии

Фотография Marilyn Manson
Marilyn Manson
Привет! Помоги сайту - оставь комментарий. А так же если увидел какую-либо ошибку!:)