Marilyn Manson - Mechanical Animals

5 133
                 INTRO:
E|--------------------------------------|
B|--------------------------------------|
G|--7/9-9-9-9-9-9-9---14-14-14-14/16-16-|
D|--7/9-9-9-9-9-9-9---------------------|
A|--5/7-7-7-7-7-7-7---12-12-12-12/14-14-|
E|--------------------------------------|

 2ND PART OF INTRO:
E|----------------------------------|
B|----------------------------------|
G|--5-5-5-5-5-5-5-5-7-7-7-7-7-7-7-7-|
D|--5-5-5-5-5-5-5-5-7-7-7-7-7-7-7-7-|
A|--3-3-3-3-3-3-3-3-5-5-5-5-5-5-5-5-|
E|----------------------------------|

 VERSE:
E|--------------|
B|--------------|
G|------9-------|
D|----9---9-7-9-|
A|--7-----------|
E|--------------|

 PRE-CHORUS: (each chord is played numerous times)
E|------------------|
B|------------------|
G|------5-------5-4-|
D|--5-4-5---5-4-5-4-|
A|--5-4-3---5-4-3-2-|
E|--3-2-----3-2-----|

 CHORUS:
E|----------------------------------|
B|--------------8-8-----------------|
G|--9-9-9-9-7-7-7-7-7-5-5-5-5-5-5-5-|
D|--9-9-9-9-7-7-7-7-7-5-5-5-5-5-5-5-|
A|--7-7-7-7-5-5-5-5-5-3-3-3-3-3-3-3-|
E|----------------------------------|

 OUTRO:
E|-------------------------------------------------------|
B|-------------------------------------------------------|
G|--9-9-12-12-9-7-9---9-9-12-12-9-7-9--12-12-12-12-12-10-|
D|--9-9-12-12-9-7-9---9-9-12-12-9-7-9--12-12-12-12-12-10-|
A|--7-7-10-10-7-5-7---7-7-10-10-7-5-7--10-10-10-10-10--8-|
E|-------------------------------------------------------|
                
Оцените сложность:
Сложно
Средне
Легко
Тональность
Размер
3

Комментарии

Фотография Marilyn Manson
Marilyn Manson
Привет! Помоги сайту - оставь комментарий. А так же если увидел какую-либо ошибку!:)